Paul Mauriat - Alouette (тема из передачи "В мире животных"

Наш ресурс предлагает вам скачать и прослушать онлайн музыкальную композицию Paul Mauriat - Alouette (тема из передачи "В мире животных" mp3, найти текст к песни и всё это бесплатно, и без регистрации

Просмотров: 260

Название mp3: Alouette (тема из передачи "В мире животных"

Исполнитель: Paul Mauriat

Добавлено: 2016-03-15

Длительность: 02:10

Скачать

Другие композиции исполнителя Paul Mauriat
Текст песни:

Alouette (В мире животных) - Paul Mauriat

Аранжировка - Дамир Абдуллин (Damir Abdullin) zabeyhui@yandex.ru

Я подобрал может не нота в ноту, но все знакомые узнают, когда играется основная часть.
Вообще, нужно иметь довольно разработанные пальцы, чтобы сыграть.
Просматривать лучше Total Commanderом или Farом, а то все ноты сбиваются

Вступление

Em Am D G
e---7-p---8--p----10---------7-p-
B---!8-p---!10-p----------10---!8-p-
G---!9-p---!9--p---------------!7-p-
D---!9-p-7-!7--p-------------5-!5-p-
A---!7-p---!7--p------------------p-
E-0----p-------p-10----10---------p-

Em Am H Em
e---3-p---5-p---------0-----0-----0-----0-----0-----0-------
B---!5-p---!5-p-5---5-4-----0---0-------0---0-------0---0-----
G---!4-p---!5-p---4-------0-------0---0-------0---0-------0---
D---!2-p---!7-p-----------------------------------------------
A---!2-p---!7-p-2-----2---------------------------------------
E-0----p-5----p---------0-----------0-----------0-------------

Основная часть (для оценки качества подбора - начинать отсюда)

Em Am D G
e---7-5-3-5-7-7-----8---3-3-----2-----7-----7-----
B-----------------5---5-----3-----3-------8---8---
G---------------5-------------2-----2---7-------7-
D-------------------------0-----------------------
A-------------0-----------------------------------
E-0-----0-----------------------------7-----------

Em Am H Em
e---3-2-0-2-3-3-----5-------------------------------
B-----------------1---(1)-5-5-----4-----0-----0-----
G---------------2-------------4-----4-------0---0---
D-------------------------------4-----4---2-------2-
A-------------0-------------5-----------------------
E-0-----0-------------------------------o-----------

Em Am D G
e---7-5-3-5-7-7-----8---10-10-10-10-5-5-7-7-----7-----
B-----------------5---5-----------------------8---8---
G---------------5---------------------------7-------7-
D-----------------------------------0-----------------
A-------------0---------------------------------------
E-0-----0------------------10-------------7-----------

Em Am H Em
e-3---2-0-2-3-3-----5-----7-7-7-7-11-11-11-12-----0-----
B---0-------------1---(1)-----------------------0---0---
G---------------2-----------------------------0-------0-
D-------------------------------------------------------
A-------------0-----------------------------------------
E-0-----0-------------------7-----11-------0------------

Потом идут повторы рифов? (или как они называются)

В длительностях разбираюсь плохо - сами соображайте


! - провести пальцем по струнам (вниз)
!

p
p - пауза
p

(1) - взята в скобки, потому что я её не играю (тяжело - играю тихо пустую вторую струну), но она есть! :)
Можно вместо написанной ноты играть пятый лад на третьей струне.

Откуда:

Видео клип Paul Mauriat - Alouette (guitar cover)
Добавить комментарий